ISO-10303-21;
HEADER;
/* Generated by software containing ST-Developer
 * from STEP Tools, Inc. (www.steptools.com) 
 */
/* OPTION: using custom schema-name function */

FILE_DESCRIPTION(
/* description */ (''),
/* implementation_level */ '2;1');

FILE_NAME(
/* name */ '303013_SC_G14_04.04.19',
/* time_stamp */ '2019-04-04T10:29:00+02:00',
/* author */ (''),
/* organization */ (''),
/* preprocessor_version */ 'ST-DEVELOPER v16.5',
/* originating_system */ 'HiCAD 2016 2102.3 Build 808',
/* authorisation */ '');

FILE_SCHEMA (('AUTOMOTIVE_DESIGN { 1 0 10303 214 1 1 1 1 }'));
ENDSEC;

DATA;
#10=ITEM_DEFINED_TRANSFORMATION('','',#559,#560);
#11=ITEM_DEFINED_TRANSFORMATION('','',#574,#575);
#12=(
REPRESENTATION_RELATIONSHIP('','',#215,#603)
REPRESENTATION_RELATIONSHIP_WITH_TRANSFORMATION(#10)
SHAPE_REPRESENTATION_RELATIONSHIP()
);
#13=(
REPRESENTATION_RELATIONSHIP('','',#216,#603)
REPRESENTATION_RELATIONSHIP_WITH_TRANSFORMATION(#11)
SHAPE_REPRESENTATION_RELATIONSHIP()
);
#14=CONTEXT_DEPENDENT_SHAPE_REPRESENTATION(#12,#606);
#15=CONTEXT_DEPENDENT_SHAPE_REPRESENTATION(#13,#608);
#16=NEXT_ASSEMBLY_USAGE_OCCURRENCE('303013_Gewinde','303013_Gewinde','',
#610,#611,$);
#17=NEXT_ASSEMBLY_USAGE_OCCURRENCE('303013_D\X\E4mpfer',
'303013_D\X\E4mpfer','',#610,#612,$);
#18=DRAUGHTING_PRE_DEFINED_CURVE_FONT('continuous');
#19=DRAUGHTING_PRE_DEFINED_CURVE_FONT('continuous');
#20=DRAUGHTING_PRE_DEFINED_CURVE_FONT('continuous');
#21=DRAUGHTING_PRE_DEFINED_CURVE_FONT('continuous');
#22=DRAUGHTING_PRE_DEFINED_CURVE_FONT('continuous');
#23=DRAUGHTING_PRE_DEFINED_CURVE_FONT('continuous');
#24=DRAUGHTING_PRE_DEFINED_CURVE_FONT('continuous');
#25=DRAUGHTING_PRE_DEFINED_CURVE_FONT('continuous');
#26=DRAUGHTING_PRE_DEFINED_CURVE_FONT('continuous');
#27=DRAUGHTING_PRE_DEFINED_CURVE_FONT('continuous');
#28=DRAUGHTING_PRE_DEFINED_CURVE_FONT('continuous');
#29=DRAUGHTING_PRE_DEFINED_CURVE_FONT('continuous');
#30=DRAUGHTING_PRE_DEFINED_CURVE_FONT('continuous');
#31=DRAUGHTING_PRE_DEFINED_CURVE_FONT('continuous');
#32=DRAUGHTING_PRE_DEFINED_CURVE_FONT('continuous');
#33=DRAUGHTING_PRE_DEFINED_CURVE_FONT('continuous');
#34=DRAUGHTING_PRE_DEFINED_CURVE_FONT('continuous');
#35=DRAUGHTING_PRE_DEFINED_CURVE_FONT('continuous');
#36=DRAUGHTING_PRE_DEFINED_CURVE_FONT('continuous');
#37=DRAUGHTING_PRE_DEFINED_CURVE_FONT('continuous');
#38=DRAUGHTING_PRE_DEFINED_CURVE_FONT('continuous');
#39=DRAUGHTING_PRE_DEFINED_CURVE_FONT('continuous');
#40=DRAUGHTING_PRE_DEFINED_CURVE_FONT('continuous');
#41=DRAUGHTING_PRE_DEFINED_CURVE_FONT('continuous');
#42=DRAUGHTING_PRE_DEFINED_CURVE_FONT('continuous');
#43=DRAUGHTING_PRE_DEFINED_CURVE_FONT('continuous');
#44=DRAUGHTING_PRE_DEFINED_CURVE_FONT('continuous');
#45=DRAUGHTING_PRE_DEFINED_CURVE_FONT('continuous');
#46=DRAUGHTING_PRE_DEFINED_CURVE_FONT('continuous');
#47=DRAUGHTING_PRE_DEFINED_CURVE_FONT('continuous');
#48=DRAUGHTING_PRE_DEFINED_CURVE_FONT('continuous');
#49=DRAUGHTING_PRE_DEFINED_CURVE_FONT('continuous');
#50=DRAUGHTING_PRE_DEFINED_CURVE_FONT('continuous');
#51=DRAUGHTING_PRE_DEFINED_CURVE_FONT('continuous');
#52=DRAUGHTING_PRE_DEFINED_CURVE_FONT('continuous');
#53=DRAUGHTING_PRE_DEFINED_CURVE_FONT('continuous');
#54=CURVE_STYLE(' ',#18,POSITIVE_LENGTH_MEASURE(0.352777777777778),#175);
#55=CURVE_STYLE(' ',#19,POSITIVE_LENGTH_MEASURE(0.352777777777778),#176);
#56=CURVE_STYLE(' ',#20,POSITIVE_LENGTH_MEASURE(0.352777777777778),#177);
#57=CURVE_STYLE(' ',#21,POSITIVE_LENGTH_MEASURE(0.352777777777778),#178);
#58=CURVE_STYLE(' ',#22,POSITIVE_LENGTH_MEASURE(0.352777777777778),#179);
#59=CURVE_STYLE(' ',#23,POSITIVE_LENGTH_MEASURE(0.352777777777778),#180);
#60=CURVE_STYLE(' ',#24,POSITIVE_LENGTH_MEASURE(0.352777777777778),#181);
#61=CURVE_STYLE(' ',#25,POSITIVE_LENGTH_MEASURE(0.352777777777778),#182);
#62=CURVE_STYLE(' ',#26,POSITIVE_LENGTH_MEASURE(0.352777777777778),#183);
#63=CURVE_STYLE(' ',#27,POSITIVE_LENGTH_MEASURE(0.352777777777778),#184);
#64=CURVE_STYLE(' ',#28,POSITIVE_LENGTH_MEASURE(0.352777777777778),#185);
#65=CURVE_STYLE(' ',#29,POSITIVE_LENGTH_MEASURE(0.352777777777778),#186);
#66=CURVE_STYLE(' ',#30,POSITIVE_LENGTH_MEASURE(0.352777777777778),#187);
#67=CURVE_STYLE(' ',#31,POSITIVE_LENGTH_MEASURE(0.352777777777778),#188);
#68=CURVE_STYLE(' ',#32,POSITIVE_LENGTH_MEASURE(0.352777777777778),#189);
#69=CURVE_STYLE(' ',#33,POSITIVE_LENGTH_MEASURE(0.352777777777778),#190);
#70=CURVE_STYLE(' ',#34,POSITIVE_LENGTH_MEASURE(0.352777777777778),#191);
#71=CURVE_STYLE(' ',#35,POSITIVE_LENGTH_MEASURE(0.352777777777778),#192);
#72=CURVE_STYLE(' ',#36,POSITIVE_LENGTH_MEASURE(0.352777777777778),#193);
#73=CURVE_STYLE(' ',#37,POSITIVE_LENGTH_MEASURE(0.352777777777778),#194);
#74=CURVE_STYLE(' ',#38,POSITIVE_LENGTH_MEASURE(0.352777777777778),#195);
#75=CURVE_STYLE(' ',#39,POSITIVE_LENGTH_MEASURE(0.352777777777778),#196);
#76=CURVE_STYLE(' ',#40,POSITIVE_LENGTH_MEASURE(0.352777777777778),#197);
#77=CURVE_STYLE(' ',#41,POSITIVE_LENGTH_MEASURE(0.352777777777778),#198);
#78=CURVE_STYLE(' ',#42,POSITIVE_LENGTH_MEASURE(0.352777777777778),#199);
#79=CURVE_STYLE(' ',#43,POSITIVE_LENGTH_MEASURE(0.352777777777778),#200);
#80=CURVE_STYLE(' ',#44,POSITIVE_LENGTH_MEASURE(0.352777777777778),#201);
#81=CURVE_STYLE(' ',#45,POSITIVE_LENGTH_MEASURE(0.352777777777778),#202);
#82=CURVE_STYLE(' ',#46,POSITIVE_LENGTH_MEASURE(0.352777777777778),#203);
#83=CURVE_STYLE(' ',#47,POSITIVE_LENGTH_MEASURE(0.352777777777778),#204);
#84=CURVE_STYLE(' ',#48,POSITIVE_LENGTH_MEASURE(0.352777777777778),#205);
#85=CURVE_STYLE(' ',#49,POSITIVE_LENGTH_MEASURE(0.352777777777778),#206);
#86=CURVE_STYLE(' ',#50,POSITIVE_LENGTH_MEASURE(0.352777777777778),#207);
#87=CURVE_STYLE(' ',#51,POSITIVE_LENGTH_MEASURE(0.352777777777778),#208);
#88=CURVE_STYLE(' ',#52,POSITIVE_LENGTH_MEASURE(0.352777777777778),#209);
#89=CURVE_STYLE(' ',#53,POSITIVE_LENGTH_MEASURE(0.352777777777778),#210);
#90=OVER_RIDING_STYLED_ITEM('Edge Colour',(#127),#304,#211);
#91=OVER_RIDING_STYLED_ITEM('Edge Colour',(#128),#305,#211);
#92=OVER_RIDING_STYLED_ITEM('Edge Colour',(#129),#306,#211);
#93=OVER_RIDING_STYLED_ITEM('Edge Colour',(#130),#307,#211);
#94=OVER_RIDING_STYLED_ITEM('Edge Colour',(#131),#308,#211);
#95=OVER_RIDING_STYLED_ITEM('Edge Colour',(#132),#309,#211);
#96=OVER_RIDING_STYLED_ITEM('Edge Colour',(#133),#309,#211);
#97=OVER_RIDING_STYLED_ITEM('Edge Colour',(#134),#310,#211);
#98=OVER_RIDING_STYLED_ITEM('Edge Colour',(#135),#311,#211);
#99=OVER_RIDING_STYLED_ITEM('Edge Colour',(#136),#310,#211);
#100=OVER_RIDING_STYLED_ITEM('Edge Colour',(#137),#312,#211);
#101=OVER_RIDING_STYLED_ITEM('Edge Colour',(#138),#311,#211);
#102=OVER_RIDING_STYLED_ITEM('Edge Colour',(#139),#313,#211);
#103=OVER_RIDING_STYLED_ITEM('Edge Colour',(#140),#312,#211);
#104=OVER_RIDING_STYLED_ITEM('Edge Colour',(#141),#314,#211);
#105=OVER_RIDING_STYLED_ITEM('Edge Colour',(#142),#313,#211);
#106=OVER_RIDING_STYLED_ITEM('Edge Colour',(#143),#315,#211);
#107=OVER_RIDING_STYLED_ITEM('Edge Colour',(#144),#314,#211);
#108=OVER_RIDING_STYLED_ITEM('Edge Colour',(#145),#315,#211);
#109=OVER_RIDING_STYLED_ITEM('Edge Colour',(#146),#305,#211);
#110=OVER_RIDING_STYLED_ITEM('Edge Colour',(#147),#304,#211);
#111=OVER_RIDING_STYLED_ITEM('Edge Colour',(#148),#306,#211);
#112=OVER_RIDING_STYLED_ITEM('Edge Colour',(#149),#308,#211);
#113=OVER_RIDING_STYLED_ITEM('Edge Colour',(#150),#307,#211);
#114=OVER_RIDING_STYLED_ITEM('Edge Colour',(#152),#316,#212);
#115=OVER_RIDING_STYLED_ITEM('Edge Colour',(#153),#317,#212);
#116=OVER_RIDING_STYLED_ITEM('Edge Colour',(#154),#316,#212);
#117=OVER_RIDING_STYLED_ITEM('Edge Colour',(#155),#318,#212);
#118=OVER_RIDING_STYLED_ITEM('Edge Colour',(#156),#319,#212);
#119=OVER_RIDING_STYLED_ITEM('Edge Colour',(#157),#318,#212);
#120=OVER_RIDING_STYLED_ITEM('Edge Colour',(#158),#319,#212);
#121=OVER_RIDING_STYLED_ITEM('Edge Colour',(#159),#320,#212);
#122=OVER_RIDING_STYLED_ITEM('Edge Colour',(#160),#320,#212);
#123=OVER_RIDING_STYLED_ITEM('Edge Colour',(#161),#321,#212);
#124=OVER_RIDING_STYLED_ITEM('Edge Colour',(#162),#317,#212);
#125=OVER_RIDING_STYLED_ITEM('Edge Colour',(#163),#321,#212);
#126=PRESENTATION_STYLE_ASSIGNMENT((#164));
#127=PRESENTATION_STYLE_ASSIGNMENT((#54));
#128=PRESENTATION_STYLE_ASSIGNMENT((#55));
#129=PRESENTATION_STYLE_ASSIGNMENT((#56));
#130=PRESENTATION_STYLE_ASSIGNMENT((#57));
#131=PRESENTATION_STYLE_ASSIGNMENT((#58));
#132=PRESENTATION_STYLE_ASSIGNMENT((#59));
#133=PRESENTATION_STYLE_ASSIGNMENT((#60));
#134=PRESENTATION_STYLE_ASSIGNMENT((#61));
#135=PRESENTATION_STYLE_ASSIGNMENT((#62));
#136=PRESENTATION_STYLE_ASSIGNMENT((#63));
#137=PRESENTATION_STYLE_ASSIGNMENT((#64));
#138=PRESENTATION_STYLE_ASSIGNMENT((#65));
#139=PRESENTATION_STYLE_ASSIGNMENT((#66));
#140=PRESENTATION_STYLE_ASSIGNMENT((#67));
#141=PRESENTATION_STYLE_ASSIGNMENT((#68));
#142=PRESENTATION_STYLE_ASSIGNMENT((#69));
#143=PRESENTATION_STYLE_ASSIGNMENT((#70));
#144=PRESENTATION_STYLE_ASSIGNMENT((#71));
#145=PRESENTATION_STYLE_ASSIGNMENT((#72));
#146=PRESENTATION_STYLE_ASSIGNMENT((#73));
#147=PRESENTATION_STYLE_ASSIGNMENT((#74));
#148=PRESENTATION_STYLE_ASSIGNMENT((#75));
#149=PRESENTATION_STYLE_ASSIGNMENT((#76));
#150=PRESENTATION_STYLE_ASSIGNMENT((#77));
#151=PRESENTATION_STYLE_ASSIGNMENT((#165));
#152=PRESENTATION_STYLE_ASSIGNMENT((#78));
#153=PRESENTATION_STYLE_ASSIGNMENT((#79));
#154=PRESENTATION_STYLE_ASSIGNMENT((#80));
#155=PRESENTATION_STYLE_ASSIGNMENT((#81));
#156=PRESENTATION_STYLE_ASSIGNMENT((#82));
#157=PRESENTATION_STYLE_ASSIGNMENT((#83));
#158=PRESENTATION_STYLE_ASSIGNMENT((#84));
#159=PRESENTATION_STYLE_ASSIGNMENT((#85));
#160=PRESENTATION_STYLE_ASSIGNMENT((#86));
#161=PRESENTATION_STYLE_ASSIGNMENT((#87));
#162=PRESENTATION_STYLE_ASSIGNMENT((#88));
#163=PRESENTATION_STYLE_ASSIGNMENT((#89));
#164=SURFACE_STYLE_USAGE(.BOTH.,#166);
#165=SURFACE_STYLE_USAGE(.BOTH.,#167);
#166=SURFACE_SIDE_STYLE('',(#168));
#167=SURFACE_SIDE_STYLE('',(#169));
#168=SURFACE_STYLE_FILL_AREA(#170);
#169=SURFACE_STYLE_FILL_AREA(#171);
#170=FILL_AREA_STYLE('',(#172));
#171=FILL_AREA_STYLE('',(#173));
#172=FILL_AREA_STYLE_COLOUR('',#174);
#173=FILL_AREA_STYLE_COLOUR('',#174);
#174=COLOUR_RGB('',0.815685987472534,0.741176009178162,0.215685993432999);
#175=COLOUR_RGB('',0.,0.,0.);
#176=COLOUR_RGB('',0.,0.,0.);
#177=COLOUR_RGB('',0.,0.,0.);
#178=COLOUR_RGB('',0.,0.,0.);
#179=COLOUR_RGB('',0.,0.,0.);
#180=COLOUR_RGB('',0.,0.,0.);
#181=COLOUR_RGB('',0.,0.,0.);
#182=COLOUR_RGB('',0.,0.,0.);
#183=COLOUR_RGB('',0.,0.,0.);
#184=COLOUR_RGB('',0.,0.,0.);
#185=COLOUR_RGB('',0.,0.,0.);
#186=COLOUR_RGB('',0.,0.,0.);
#187=COLOUR_RGB('',0.,0.,0.);
#188=COLOUR_RGB('',0.,0.,0.);
#189=COLOUR_RGB('',0.,0.,0.);
#190=COLOUR_RGB('',0.,0.,0.);
#191=COLOUR_RGB('',0.,0.,0.);
#192=COLOUR_RGB('',0.,0.,0.);
#193=COLOUR_RGB('',0.,0.,0.);
#194=COLOUR_RGB('',0.,0.,0.);
#195=COLOUR_RGB('',0.,0.,0.);
#196=COLOUR_RGB('',0.,0.,0.);
#197=COLOUR_RGB('',0.,0.,0.);
#198=COLOUR_RGB('',0.,0.,0.);
#199=COLOUR_RGB('',0.,0.,0.);
#200=COLOUR_RGB('',0.,0.,0.);
#201=COLOUR_RGB('',0.,0.,0.);
#202=COLOUR_RGB('',0.,0.,0.);
#203=COLOUR_RGB('',0.,0.,0.);
#204=COLOUR_RGB('',0.,0.,0.);
#205=COLOUR_RGB('',0.,0.,0.);
#206=COLOUR_RGB('',0.,0.,0.);
#207=COLOUR_RGB('',0.,0.,0.);
#208=COLOUR_RGB('',0.,0.,0.);
#209=COLOUR_RGB('',0.,0.,0.);
#210=COLOUR_RGB('',0.,0.,0.);
#211=STYLED_ITEM('Solid Colour',(#126),#601);
#212=STYLED_ITEM('Solid Colour',(#151),#602);
#213=MECHANICAL_DESIGN_GEOMETRIC_PRESENTATION_REPRESENTATION(
'Container for Styled_item',(#212,#211,#93,#106,#102,#98,#100,#104,#95,
#101,#107,#94,#91,#103,#105,#108,#99,#90,#96,#97,#92,#113,#112,#110,#111,
#109,#114,#121,#123,#122,#125,#118,#120,#117,#124,#116,#119,#115),#627);
#214=PRESENTATION_LAYER_ASSIGNMENT('1','1',(#601,#602));
#215=ADVANCED_BREP_SHAPE_REPRESENTATION('Body',(#601,#559),#628);
#216=ADVANCED_BREP_SHAPE_REPRESENTATION('Body',(#602,#574),#629);
#217=CLOSED_SHELL('',(#582,#583,#584,#585,#586,#587,#588,#589,#590,#591,
#592,#593));
#218=CLOSED_SHELL('',(#594,#595,#596,#597,#598,#599,#600));
#219=CONICAL_SURFACE('',#544,4.7,45.0000000000005);
#220=CONICAL_SURFACE('',#557,6.91421356237309,44.9999999999999);
#221=CONICAL_SURFACE('',#558,6.5785,45.);
#222=CONICAL_SURFACE('',#568,7.5,6.34019174590993);
#223=CONICAL_SURFACE('',#571,4.5,6.34019174590987);
#224=PLANE('',#541);
#225=PLANE('',#548);
#226=PLANE('',#552);
#227=PLANE('',#556);
#228=PLANE('',#561);
#229=PLANE('',#566);
#230=PLANE('',#570);
#231=PLANE('',#573);
#232=ORIENTED_EDGE('',*,*,#304,.F.);
#233=ORIENTED_EDGE('',*,*,#305,.T.);
#234=ORIENTED_EDGE('',*,*,#306,.F.);
#235=ORIENTED_EDGE('',*,*,#307,.T.);
#236=ORIENTED_EDGE('',*,*,#308,.T.);
#237=ORIENTED_EDGE('',*,*,#309,.T.);
#238=ORIENTED_EDGE('',*,*,#309,.T.);
#239=ORIENTED_EDGE('',*,*,#310,.T.);
#240=ORIENTED_EDGE('',*,*,#311,.T.);
#241=ORIENTED_EDGE('',*,*,#310,.F.);
#242=ORIENTED_EDGE('',*,*,#312,.F.);
#243=ORIENTED_EDGE('',*,*,#311,.T.);
#244=ORIENTED_EDGE('',*,*,#313,.T.);
#245=ORIENTED_EDGE('',*,*,#312,.T.);
#246=ORIENTED_EDGE('',*,*,#314,.F.);
#247=ORIENTED_EDGE('',*,*,#313,.F.);
#248=ORIENTED_EDGE('',*,*,#315,.T.);
#249=ORIENTED_EDGE('',*,*,#314,.T.);
#250=ORIENTED_EDGE('',*,*,#315,.F.);
#251=ORIENTED_EDGE('',*,*,#305,.F.);
#252=ORIENTED_EDGE('',*,*,#304,.T.);
#253=ORIENTED_EDGE('',*,*,#306,.T.);
#254=ORIENTED_EDGE('',*,*,#308,.F.);
#255=ORIENTED_EDGE('',*,*,#307,.F.);
#256=ORIENTED_EDGE('',*,*,#316,.F.);
#257=ORIENTED_EDGE('',*,*,#317,.T.);
#258=ORIENTED_EDGE('',*,*,#316,.F.);
#259=ORIENTED_EDGE('',*,*,#318,.T.);
#260=ORIENTED_EDGE('',*,*,#319,.F.);
#261=ORIENTED_EDGE('',*,*,#318,.T.);
#262=ORIENTED_EDGE('',*,*,#319,.T.);
#263=ORIENTED_EDGE('',*,*,#320,.F.);
#264=ORIENTED_EDGE('',*,*,#320,.T.);
#265=ORIENTED_EDGE('',*,*,#321,.F.);
#266=ORIENTED_EDGE('',*,*,#317,.T.);
#267=ORIENTED_EDGE('',*,*,#321,.F.);
#268=CIRCLE('',#536,5.5);
#269=CIRCLE('',#537,5.5);
#270=CIRCLE('',#539,6.5785);
#271=CIRCLE('',#540,6.5785);
#272=CIRCLE('',#542,5.5785);
#273=CIRCLE('',#543,4.7);
#274=CIRCLE('',#545,4.5);
#275=CIRCLE('',#547,4.5);
#276=CIRCLE('',#549,5.5);
#277=CIRCLE('',#551,5.5);
#278=CIRCLE('',#553,7.5);
#279=CIRCLE('',#555,7.5);
#280=CIRCLE('',#562,5.49999999999999);
#281=CIRCLE('',#563,4.5);
#282=CIRCLE('',#565,5.5);
#283=CIRCLE('',#567,7.5);
#284=CIRCLE('',#569,5.5);
#285=CIRCLE('',#572,3.16666666666668);
#286=VERTEX_POINT('',#477);
#287=VERTEX_POINT('',#479);
#288=VERTEX_POINT('',#482);
#289=VERTEX_POINT('',#484);
#290=VERTEX_POINT('',#487);
#291=VERTEX_POINT('',#489);
#292=VERTEX_POINT('',#492);
#293=VERTEX_POINT('',#495);
#294=VERTEX_POINT('',#498);
#295=VERTEX_POINT('',#501);
#296=VERTEX_POINT('',#504);
#297=VERTEX_POINT('',#507);
#298=VERTEX_POINT('',#515);
#299=VERTEX_POINT('',#517);
#300=VERTEX_POINT('',#520);
#301=VERTEX_POINT('',#523);
#302=VERTEX_POINT('',#526);
#303=VERTEX_POINT('',#530);
#304=EDGE_CURVE('',#286,#286,#268,.T.);
#305=EDGE_CURVE('',#287,#287,#269,.T.);
#306=EDGE_CURVE('',#288,#288,#270,.T.);
#307=EDGE_CURVE('',#289,#289,#271,.T.);
#308=EDGE_CURVE('',#290,#290,#272,.T.);
#309=EDGE_CURVE('',#291,#291,#273,.T.);
#310=EDGE_CURVE('',#292,#292,#274,.T.);
#311=EDGE_CURVE('',#293,#293,#275,.T.);
#312=EDGE_CURVE('',#294,#294,#276,.T.);
#313=EDGE_CURVE('',#295,#295,#277,.T.);
#314=EDGE_CURVE('',#296,#296,#278,.T.);
#315=EDGE_CURVE('',#297,#297,#279,.T.);
#316=EDGE_CURVE('',#298,#298,#280,.T.);
#317=EDGE_CURVE('',#299,#299,#281,.T.);
#318=EDGE_CURVE('',#300,#300,#282,.T.);
#319=EDGE_CURVE('',#301,#301,#283,.T.);
#320=EDGE_CURVE('',#302,#302,#284,.T.);
#321=EDGE_CURVE('',#303,#303,#285,.T.);
#322=EDGE_LOOP('',(#232));
#323=EDGE_LOOP('',(#233));
#324=EDGE_LOOP('',(#234));
#325=EDGE_LOOP('',(#235));
#326=EDGE_LOOP('',(#236));
#327=EDGE_LOOP('',(#237));
#328=EDGE_LOOP('',(#238));
#329=EDGE_LOOP('',(#239));
#330=EDGE_LOOP('',(#240));
#331=EDGE_LOOP('',(#241));
#332=EDGE_LOOP('',(#242));
#333=EDGE_LOOP('',(#243));
#334=EDGE_LOOP('',(#244));
#335=EDGE_LOOP('',(#245));
#336=EDGE_LOOP('',(#246));
#337=EDGE_LOOP('',(#247));
#338=EDGE_LOOP('',(#248));
#339=EDGE_LOOP('',(#249));
#340=EDGE_LOOP('',(#250));
#341=EDGE_LOOP('',(#251));
#342=EDGE_LOOP('',(#252));
#343=EDGE_LOOP('',(#253));
#344=EDGE_LOOP('',(#254));
#345=EDGE_LOOP('',(#255));
#346=EDGE_LOOP('',(#256));
#347=EDGE_LOOP('',(#257));
#348=EDGE_LOOP('',(#258));
#349=EDGE_LOOP('',(#259));
#350=EDGE_LOOP('',(#260));
#351=EDGE_LOOP('',(#261));
#352=EDGE_LOOP('',(#262));
#353=EDGE_LOOP('',(#263));
#354=EDGE_LOOP('',(#264));
#355=EDGE_LOOP('',(#265));
#356=EDGE_LOOP('',(#266));
#357=EDGE_LOOP('',(#267));
#358=FACE_BOUND('',#322,.T.);
#359=FACE_BOUND('',#323,.T.);
#360=FACE_BOUND('',#324,.T.);
#361=FACE_BOUND('',#325,.T.);
#362=FACE_BOUND('',#326,.T.);
#363=FACE_BOUND('',#327,.T.);
#364=FACE_BOUND('',#328,.F.);
#365=FACE_BOUND('',#329,.F.);
#366=FACE_BOUND('',#330,.F.);
#367=FACE_BOUND('',#331,.F.);
#368=FACE_BOUND('',#332,.T.);
#369=FACE_BOUND('',#333,.T.);
#370=FACE_BOUND('',#334,.T.);
#371=FACE_BOUND('',#335,.T.);
#372=FACE_BOUND('',#336,.T.);
#373=FACE_BOUND('',#337,.T.);
#374=FACE_BOUND('',#338,.T.);
#375=FACE_BOUND('',#339,.T.);
#376=FACE_BOUND('',#340,.T.);
#377=FACE_BOUND('',#341,.T.);
#378=FACE_BOUND('',#342,.T.);
#379=FACE_BOUND('',#343,.T.);
#380=FACE_BOUND('',#344,.T.);
#381=FACE_BOUND('',#345,.T.);
#382=FACE_BOUND('',#346,.T.);
#383=FACE_BOUND('',#347,.T.);
#384=FACE_BOUND('',#348,.F.);
#385=FACE_BOUND('',#349,.F.);
#386=FACE_BOUND('',#350,.T.);
#387=FACE_BOUND('',#351,.T.);
#388=FACE_BOUND('',#352,.T.);
#389=FACE_BOUND('',#353,.T.);
#390=FACE_BOUND('',#354,.T.);
#391=FACE_BOUND('',#355,.F.);
#392=FACE_BOUND('',#356,.F.);
#393=FACE_BOUND('',#357,.T.);
#394=DIRECTION('',(0.,1.,0.));
#395=DIRECTION('',(1.,0.,0.));
#396=DIRECTION('',(0.,-1.,0.));
#397=DIRECTION('',(0.,0.,-5.5));
#398=DIRECTION('',(0.,-1.,0.));
#399=DIRECTION('',(0.,0.,5.5));
#400=DIRECTION('',(0.,-1.,0.));
#401=DIRECTION('',(0.,0.,1.));
#402=DIRECTION('',(0.,1.,0.));
#403=DIRECTION('',(0.,0.,-6.5785));
#404=DIRECTION('',(0.,1.,0.));
#405=DIRECTION('',(0.,0.,-6.5785));
#406=DIRECTION('',(0.,-1.,0.));
#407=DIRECTION('',(-1.,0.,0.));
#408=DIRECTION('',(0.,-1.,0.));
#409=DIRECTION('',(0.,0.,5.5785));
#410=DIRECTION('',(0.,1.,0.));
#411=DIRECTION('',(0.,0.,4.7));
#412=DIRECTION('',(0.,-1.,0.));
#413=DIRECTION('',(1.,0.,0.));
#414=DIRECTION('',(0.,-1.,0.));
#415=DIRECTION('',(0.,0.,-4.5));
#416=DIRECTION('',(0.,-1.,0.));
#417=DIRECTION('',(1.,0.,0.));
#418=DIRECTION('',(0.,-1.,0.));
#419=DIRECTION('',(0.,0.,-4.5));
#420=DIRECTION('',(0.,1.,0.));
#421=DIRECTION('',(1.,0.,0.));
#422=DIRECTION('',(0.,-1.,0.));
#423=DIRECTION('',(0.,0.,5.5));
#424=DIRECTION('',(0.,1.,0.));
#425=DIRECTION('',(1.,0.,0.));
#426=DIRECTION('',(0.,1.,0.));
#427=DIRECTION('',(0.,0.,-5.5));
#428=DIRECTION('',(0.,1.,0.));
#429=DIRECTION('',(1.,0.,0.));
#430=DIRECTION('',(0.,-1.,0.));
#431=DIRECTION('',(0.,0.,7.5));
#432=DIRECTION('',(0.,1.,0.));
#433=DIRECTION('',(1.,0.,0.));
#434=DIRECTION('',(0.,1.,0.));
#435=DIRECTION('',(0.,0.,-7.5));
#436=DIRECTION('',(0.,-1.,0.));
#437=DIRECTION('',(-1.,0.,0.));
#438=DIRECTION('',(0.,-1.,0.));
#439=DIRECTION('',(1.,0.,0.));
#440=DIRECTION('',(0.,1.,0.));
#441=DIRECTION('',(0.,0.,-1.));
#442=DIRECTION('',(0.,0.,1.));
#443=DIRECTION('',(1.,0.,0.));
#444=DIRECTION('',(0.,-1.,0.));
#445=DIRECTION('',(1.,0.,0.));
#446=DIRECTION('',(0.,-1.,0.));
#447=DIRECTION('',(-1.,0.,0.));
#448=DIRECTION('',(0.,1.,0.));
#449=DIRECTION('',(5.49999999999999,0.,0.));
#450=DIRECTION('',(0.,1.,0.));
#451=DIRECTION('',(4.5,0.,0.));
#452=DIRECTION('',(0.,-1.,0.));
#453=DIRECTION('',(1.,0.,0.));
#454=DIRECTION('',(0.,1.,0.));
#455=DIRECTION('',(5.5,0.,0.));
#456=DIRECTION('',(0.,-1.,0.));
#457=DIRECTION('',(-1.,0.,0.));
#458=DIRECTION('',(0.,1.,0.));
#459=DIRECTION('',(7.5,0.,0.));
#460=DIRECTION('',(0.,-1.,0.));
#461=DIRECTION('',(1.,0.,0.));
#462=DIRECTION('',(0.,1.,0.));
#463=DIRECTION('',(5.5,0.,0.));
#464=DIRECTION('',(0.,1.,0.));
#465=DIRECTION('',(1.,0.,0.));
#466=DIRECTION('',(0.,-1.,0.));
#467=DIRECTION('',(1.,0.,0.));
#468=DIRECTION('',(0.,1.,0.));
#469=DIRECTION('',(3.16666666666667,0.,0.));
#470=DIRECTION('',(0.,-1.,0.));
#471=DIRECTION('',(-1.,0.,0.));
#472=DIRECTION('',(0.,0.,1.));
#473=DIRECTION('',(1.,0.,0.));
#474=DIRECTION('',(0.,-1.,0.));
#475=DIRECTION('',(1.,0.,0.));
#476=CARTESIAN_POINT('',(28.1531125,18.6522675,0.));
#477=CARTESIAN_POINT('',(28.1531125,18.6522675,-5.5));
#478=CARTESIAN_POINT('',(28.1531125,18.6522675,0.));
#479=CARTESIAN_POINT('',(28.1531125,19.6522675,5.5));
#480=CARTESIAN_POINT('',(28.1531125,19.6522675,0.));
#481=CARTESIAN_POINT('',(28.1531125,18.6522675,0.));
#482=CARTESIAN_POINT('',(28.1531125,17.5737675,-6.5785));
#483=CARTESIAN_POINT('',(28.1531125,17.5737675,0.));
#484=CARTESIAN_POINT('',(28.1531125,14.6522675,-6.5785));
#485=CARTESIAN_POINT('',(28.1531125,14.6522675,0.));
#486=CARTESIAN_POINT('',(28.1531125,13.6522675,5.7225));
#487=CARTESIAN_POINT('',(28.1531125,13.6522675,5.5785));
#488=CARTESIAN_POINT('',(28.1531125,13.6522675,0.));
#489=CARTESIAN_POINT('',(28.1531125,13.6522675,4.7));
#490=CARTESIAN_POINT('',(28.1531125,13.6522675,0.));
#491=CARTESIAN_POINT('',(28.1531125,13.6522675,0.));
#492=CARTESIAN_POINT('',(28.1531125,13.8522675,-4.5));
#493=CARTESIAN_POINT('',(28.1531125,13.8522675,0.));
#494=CARTESIAN_POINT('',(28.1531125,23.6522675,0.));
#495=CARTESIAN_POINT('',(28.1531125,23.6522675,-4.5));
#496=CARTESIAN_POINT('',(28.1531125,23.6522675,0.));
#497=CARTESIAN_POINT('',(33.6531125,23.6522675,0.));
#498=CARTESIAN_POINT('',(28.1531125,23.6522675,5.5));
#499=CARTESIAN_POINT('',(28.1531125,23.6522675,0.));
#500=CARTESIAN_POINT('',(28.1531125,20.6522675,0.));
#501=CARTESIAN_POINT('',(28.1531125,20.6522675,-5.5));
#502=CARTESIAN_POINT('',(28.1531125,20.6522675,0.));
#503=CARTESIAN_POINT('',(35.6531125,20.6522675,0.));
#504=CARTESIAN_POINT('',(28.1531125,20.6522675,7.5));
#505=CARTESIAN_POINT('',(28.1531125,20.6522675,0.));
#506=CARTESIAN_POINT('',(28.1531125,19.6522675,0.));
#507=CARTESIAN_POINT('',(28.1531125,19.6522675,-7.5));
#508=CARTESIAN_POINT('',(28.1531125,19.6522675,0.));
#509=CARTESIAN_POINT('',(35.6531125,19.6522675,0.));
#510=CARTESIAN_POINT('',(28.1531125,17.2380539376269,0.));
#511=CARTESIAN_POINT('',(28.1531125,14.6522675,0.));
#512=CARTESIAN_POINT('',(0.,0.,0.));
#513=CARTESIAN_POINT('',(0.,0.,0.));
#514=CARTESIAN_POINT('',(32.6531125,23.6522675,0.));
#515=CARTESIAN_POINT('',(33.6531125,23.6522675,0.));
#516=CARTESIAN_POINT('',(28.1531125,23.6522675,0.));
#517=CARTESIAN_POINT('',(32.6531125,23.6522675,0.));
#518=CARTESIAN_POINT('',(28.1531125,23.6522675,0.));
#519=CARTESIAN_POINT('',(28.1531125,23.6522675,0.));
#520=CARTESIAN_POINT('',(33.6531125,20.6522675,0.));
#521=CARTESIAN_POINT('',(28.1531125,20.6522675,0.));
#522=CARTESIAN_POINT('',(33.6531125,20.6522675,0.));
#523=CARTESIAN_POINT('',(35.6531125,20.6522675,0.));
#524=CARTESIAN_POINT('',(28.1531125,20.6522675,0.));
#525=CARTESIAN_POINT('',(28.1531125,20.6522675,0.));
#526=CARTESIAN_POINT('',(33.6531125,38.6522675,0.));
#527=CARTESIAN_POINT('',(28.1531125,38.6522675,0.));
#528=CARTESIAN_POINT('',(33.6531125,38.6522675,0.));
#529=CARTESIAN_POINT('',(28.1531125,23.6522675,0.));
#530=CARTESIAN_POINT('',(31.3197791666667,35.6522675,0.));
#531=CARTESIAN_POINT('',(28.1531125,35.6522675,0.));
#532=CARTESIAN_POINT('',(28.1531125,35.6522675,0.));
#533=CARTESIAN_POINT('',(0.,0.,0.));
#534=CARTESIAN_POINT('',(0.,0.,0.));
#535=AXIS2_PLACEMENT_3D('',#476,#394,#395);
#536=AXIS2_PLACEMENT_3D('',#478,#396,#397);
#537=AXIS2_PLACEMENT_3D('',#480,#398,#399);
#538=AXIS2_PLACEMENT_3D('',#481,#400,#401);
#539=AXIS2_PLACEMENT_3D('',#483,#402,#403);
#540=AXIS2_PLACEMENT_3D('',#485,#404,#405);
#541=AXIS2_PLACEMENT_3D('',#486,#406,#407);
#542=AXIS2_PLACEMENT_3D('',#488,#408,#409);
#543=AXIS2_PLACEMENT_3D('',#490,#410,#411);
#544=AXIS2_PLACEMENT_3D('',#491,#412,#413);
#545=AXIS2_PLACEMENT_3D('',#493,#414,#415);
#546=AXIS2_PLACEMENT_3D('',#494,#416,#417);
#547=AXIS2_PLACEMENT_3D('',#496,#418,#419);
#548=AXIS2_PLACEMENT_3D('',#497,#420,#421);
#549=AXIS2_PLACEMENT_3D('',#499,#422,#423);
#550=AXIS2_PLACEMENT_3D('',#500,#424,#425);
#551=AXIS2_PLACEMENT_3D('',#502,#426,#427);
#552=AXIS2_PLACEMENT_3D('',#503,#428,#429);
#553=AXIS2_PLACEMENT_3D('',#505,#430,#431);
#554=AXIS2_PLACEMENT_3D('',#506,#432,#433);
#555=AXIS2_PLACEMENT_3D('',#508,#434,#435);
#556=AXIS2_PLACEMENT_3D('',#509,#436,#437);
#557=AXIS2_PLACEMENT_3D('',#510,#438,#439);
#558=AXIS2_PLACEMENT_3D('',#511,#440,#441);
#559=AXIS2_PLACEMENT_3D('',#512,#442,#443);
#560=AXIS2_PLACEMENT_3D('',#513,#444,#445);
#561=AXIS2_PLACEMENT_3D('',#514,#446,#447);
#562=AXIS2_PLACEMENT_3D('',#516,#448,#449);
#563=AXIS2_PLACEMENT_3D('',#518,#450,#451);
#564=AXIS2_PLACEMENT_3D('',#519,#452,#453);
#565=AXIS2_PLACEMENT_3D('',#521,#454,#455);
#566=AXIS2_PLACEMENT_3D('',#522,#456,#457);
#567=AXIS2_PLACEMENT_3D('',#524,#458,#459);
#568=AXIS2_PLACEMENT_3D('',#525,#460,#461);
#569=AXIS2_PLACEMENT_3D('',#527,#462,#463);
#570=AXIS2_PLACEMENT_3D('',#528,#464,#465);
#571=AXIS2_PLACEMENT_3D('',#529,#466,#467);
#572=AXIS2_PLACEMENT_3D('',#531,#468,#469);
#573=AXIS2_PLACEMENT_3D('',#532,#470,#471);
#574=AXIS2_PLACEMENT_3D('',#533,#472,#473);
#575=AXIS2_PLACEMENT_3D('',#534,#474,#475);
#576=CYLINDRICAL_SURFACE('',#535,5.5);
#577=CYLINDRICAL_SURFACE('',#538,6.5785);
#578=CYLINDRICAL_SURFACE('',#546,4.5);
#579=CYLINDRICAL_SURFACE('',#550,5.5);
#580=CYLINDRICAL_SURFACE('',#554,7.5);
#581=CYLINDRICAL_SURFACE('',#564,5.49999999999999);
#582=ADVANCED_FACE('',(#358,#359),#576,.T.);
#583=ADVANCED_FACE('',(#360,#361),#577,.T.);
#584=ADVANCED_FACE('',(#362,#363),#224,.T.);
#585=ADVANCED_FACE('',(#364,#365),#219,.F.);
#586=ADVANCED_FACE('',(#366,#367),#578,.F.);
#587=ADVANCED_FACE('',(#368,#369),#225,.T.);
#588=ADVANCED_FACE('',(#370,#371),#579,.T.);
#589=ADVANCED_FACE('',(#372,#373),#226,.T.);
#590=ADVANCED_FACE('',(#374,#375),#580,.T.);
#591=ADVANCED_FACE('',(#376,#377),#227,.T.);
#592=ADVANCED_FACE('',(#378,#379),#220,.T.);
#593=ADVANCED_FACE('',(#380,#381),#221,.T.);
#594=ADVANCED_FACE('',(#382,#383),#228,.T.);
#595=ADVANCED_FACE('',(#384,#385),#581,.F.);
#596=ADVANCED_FACE('',(#386,#387),#229,.T.);
#597=ADVANCED_FACE('',(#388,#389),#222,.T.);
#598=ADVANCED_FACE('',(#390),#230,.T.);
#599=ADVANCED_FACE('',(#391,#392),#223,.F.);
#600=ADVANCED_FACE('',(#393),#231,.T.);
#601=MANIFOLD_SOLID_BREP('Solid',#217);
#602=MANIFOLD_SOLID_BREP('Solid',#218);
#603=SHAPE_REPRESENTATION('RootProduct',(#560,#575),#627);
#604=PRODUCT_DEFINITION_SHAPE('','',#610);
#605=PRODUCT_DEFINITION_SHAPE('','',#611);
#606=PRODUCT_DEFINITION_SHAPE('',$,#16);
#607=PRODUCT_DEFINITION_SHAPE('','',#612);
#608=PRODUCT_DEFINITION_SHAPE('',$,#17);
#609=PRODUCT_DEFINITION_CONTEXT('part definition',#617,'');
#610=PRODUCT_DEFINITION('','',#613,#609);
#611=PRODUCT_DEFINITION('','',#614,#609);
#612=PRODUCT_DEFINITION('','',#615,#609);
#613=PRODUCT_DEFINITION_FORMATION('','',#619);
#614=PRODUCT_DEFINITION_FORMATION('','',#620);
#615=PRODUCT_DEFINITION_FORMATION('','',#621);
#616=APPLICATION_PROTOCOL_DEFINITION('international standard',
'automotive_design',2003,#617);
#617=APPLICATION_CONTEXT(
'Core Data for Automotive Mechanical Design Process');
#618=PRODUCT_CONTEXT('part definition',#617,'');
#619=PRODUCT('Root','Root','',(#618));
#620=PRODUCT('303013_Gewinde','303013_Gewinde','',(#618));
#621=PRODUCT('303013_D\X\E4mpfer','303013_D\X\E4mpfer','',(#618));
#622=SHAPE_DEFINITION_REPRESENTATION(#604,#603);
#623=SHAPE_DEFINITION_REPRESENTATION(#605,#215);
#624=SHAPE_DEFINITION_REPRESENTATION(#607,#216);
#625=PRODUCT_RELATED_PRODUCT_CATEGORY('','',(#619,#620,#621));
#626=UNCERTAINTY_MEASURE_WITH_UNIT(LENGTH_MEASURE(0.001),#630,
'DISTANCE_ACCURACY_VALUE',
'Maximum model space distance between geometric entities at asserted c
onnectivities');
#627=(
GEOMETRIC_REPRESENTATION_CONTEXT(3)
GLOBAL_UNCERTAINTY_ASSIGNED_CONTEXT((#626))
GLOBAL_UNIT_ASSIGNED_CONTEXT((#630,#632,#635))
REPRESENTATION_CONTEXT('Default Context','3D')
);
#628=(
GEOMETRIC_REPRESENTATION_CONTEXT(3)
GLOBAL_UNCERTAINTY_ASSIGNED_CONTEXT((#626))
GLOBAL_UNIT_ASSIGNED_CONTEXT((#630,#632,#635))
REPRESENTATION_CONTEXT('Default Context','3D')
);
#629=(
GEOMETRIC_REPRESENTATION_CONTEXT(3)
GLOBAL_UNCERTAINTY_ASSIGNED_CONTEXT((#626))
GLOBAL_UNIT_ASSIGNED_CONTEXT((#630,#632,#635))
REPRESENTATION_CONTEXT('Default Context','3D')
);
#630=(
LENGTH_UNIT()
NAMED_UNIT(*)
SI_UNIT(.MILLI.,.METRE.)
);
#631=DIMENSIONAL_EXPONENTS(0.,0.,0.,0.,0.,0.,0.);
#632=(
CONVERSION_BASED_UNIT('degree',#634)
NAMED_UNIT(#631)
PLANE_ANGLE_UNIT()
);
#633=(
NAMED_UNIT(*)
PLANE_ANGLE_UNIT()
SI_UNIT($,.RADIAN.)
);
#634=PLANE_ANGLE_MEASURE_WITH_UNIT(PLANE_ANGLE_MEASURE(0.01745329252),#633);
#635=(
NAMED_UNIT(*)
SI_UNIT($,.STERADIAN.)
SOLID_ANGLE_UNIT()
);
ENDSEC;
END-ISO-10303-21;
